orz [finale]
3/4 178bpm


D|---------------------------|--------------------------|-------------------------|--------------------------|
A|---------------------------|-13-----------------------|-------------------------|-10-----------------------|
F|-------------------9--h10--|------10---9-\-5----------|-------------5-/-9--h10--|------10---9-\-5----------|
C|---------------------------|-------------------7-\-3--|-----3-/-7---------------|-------------------7-\-3--|
G|-----3-/-10--h12-----------|--------------------------|-1-----------------------|--------------------------|
C|-3-------------------------|--------------------------|-------------------------|--------------------------|


D|---------------------------|--------------------------|----------------------8-/|-13-----------------------|
A|---------------------------|-13-----------------------|-------------------------|-----13-\-8---------------|
F|-------------------9--h10--|------10---9-\-5----------|--------------9-h10------|--------------10-p9-------|
C|---------------------------|-------------------7------|-----5-/-10--------------|----------------------10--|
G|-----3-/-10--h12-----------|----------------------h7--|-3-----------------------|--------------------------|
C|-3-------------------------|--------------------------|-------------------------|--------------------------|


D|---------------------------|--------------------------|-------------------------|-12-----------------------|
A|---------------------------|--------------------------|---------------------13--|-----13-------------------|
F|-----------------------10--|--14--10-/-9--------------|-------------12--14------|---------14-/-10-p9-------|
C|---------5-/-10--h12-------|-------------h10----------|----10-/-15--------------|---------------------h10--|
G|-5---8---------------------|------------------12-p10--|-8-----------------------|--------------------------|
C|---------------------------|--------------------------|-------------------------|--------------------------|


D|---------------------------|--------------------------|-------------------------|--------------------------|
A|-----------------------13--|-15-/-10------------------|-------------------------|-13-----------------------|
F|---------------12--14------|----------10--p9----------|-----------------12-h14--|-----14-/-10-p9-----------|
C|-----10-/-14---------------|------------------10------|---------10--14----------|-----------------10-------|
G|-8-------------------------|---------------------h12--|-7-/-10------------------|---------------------h10--|
C|---------------------------|--------------------------|-------------------------|--------------------------|
uranium falcon [intro]
4/4 178bpm


D|--------------------------------------------------x--x--x--x--|--0--------0--------0-----------------------------------------|
A|--------------------------------------------------x--x--x--x--|--0--------0--------0-----------------------t15--8--h10--t15--|
F|--------------------------------------------------x--x--x--x--|--7--------7--------7--------/--------------------------------|
C|--------------------------------------------------x--x--x--x--|--5--------5--------5--------/--------------------------------|
G|--------------------------------------------------x--x--x--x--|--3--------3--------3--------/--------------------------------|
C|--------------------------------------------------x--x--x--x--|--------------------------------------------------------------|


D|--------------------------------------------------------------|--------------------------------------------------x--x--x--x--|
A|--10--p8--t15--8--h10--t15--10--p8--t15--8--h10--t15--10--p8--|--------------------------------------------------x--x--x--x--|
F|--------------------------------------------------------------|--------------0---------------------0-------------x--x--x--x--|
C|--------------------------------------------------------------|---/-9-----------------2-/-4----------------------x--x--x--x--|
G|--------------------------------------------------------------|---------------------------------------------h5---x--x--x--x--|
C|--------------------------------------------------------------|--------------------------------------------------x--x--x--x--|


D|--0--------0--------0-----------------------t15--10-h14--t15--|--14-p10--t15--10-h14--t15--14-p10--t15--10-h14--t15--14-p10--|
A|--8--------8--------8--------\--------------------------------|--------------------------------------------------------------|
F|--11-------11-------11-------\--------------------------------|--------------------------------------------------------------|
C|--12-------12-------12-------\--------------------------------|--------------------------------------------------------------|
G|--10-------10-------10-------\--------------------------------|--------------------------------------------------------------|
C|--10-------10-------10-------\--------------------------------|--------------------------------------------------------------|


D|----------------------------------------0---------x--x--x--x--|--0--------0--------0-----------------------------------------|
A|------------------------------0--8-\-7------------x--x--x--x--|--0--------0--------0-----------------------t15--8--h10--t15--|
F|--------------------0--7-/-9---------------7-/-9--x--x--x--x--|--7--------7--------7--------/--------------------------------|
C|----------0--9-\-7--------------------------------x--x--x--x--|--5--------5--------5--------/--------------------------------|
G|--9-/-10------------------------------------------x--x--x--x--|--3--------3--------3--------/--------------------------------|
C|--------------------------------------------------x--x--x--x--|--------------------------------------------------------------|


D|--------------------------------------------------------------|--------------------------------------------------x--x--x--x--|
A|--10--p8--t15--8--h10--t15--10--p8--t15--8--h10--t15--10--p8--|--------------------------------------------------x--x--x--x--|
F|--------------------------------------------------------------|--------------0---------------------0-------------x--x--x--x--|
C|--------------------------------------------------------------|---/-9-----------------2-/-4----------------------x--x--x--x--|
G|--------------------------------------------------------------|---------------------------------------------h5---x--x--x--x--|
C|--------------------------------------------------------------|--------------------------------------------------x--x--x--x--|


D|--0--------0--------0-----------------------------x--x--x--x--|--0-----------------5--------\--------------------x--x--x--x--|
A|--0--------0--------0-----------------------------x--x--x--x--|--0-----------------7--------\--------------------x--x--x--x--|
F|--7--------7--------7--------/--------------------x--x--x--x--|--7-----------------7--------\--------------------x--x--x--x--|
C|--5--------5--------5--------/--------------------x--x--x--x--|--5--------5--------5--------\--------------------x--x--x--x--|
G|--2--------2--------2--------/--------------------x--x--x--x--|--2--------5--------5--------\--------------------x--x--x--x--|
C|--------------------------------------------------x--x--x--x--|-----------5--------5--------\--------------------x--x--x--x--|


D|--0--------0--------0-----------------------------x--x--x--x--|--12-------12-------12-------\-----------------------<19>^22--|
A|--8--------8--------8--------\--------------------x--x--x--x--|--15-------15-------15-------\----------------------x---------|
F|--11-------11-------11-------\--------------------x--x--x--x--|--12-------12-------12-------\---------------------x----------|
C|--12-------12-------12-------\--------------------x--x--x--x--|--16-------16-------16-------\--------------------x-----------|
G|--10-------10-------10-------\--------------------x--x--x--x--|--12-------12-------12-------\-------------------x------------|
C|--10-------10-------10-------\--------------------x--x--x--x--|--12-------12-------12-------\------------------x-------------|
while [paradiddle]
4/4 178bpm

D|---------------------------------------------------------------------------------|
A|-----------------t10---0---h5---------------------------------t10---0---h5-------|
F|--t11---0---h7------------------t11---0---h7---t11---0---h7------------------t11-|
C|---------------------------------------------------------------------------------|
G|---------------------------------------------------------------------------------|
C|---------------------------------------------------------------------------------|


D|---------------------------------------------------------------------------------|
A|-----------t10---0---h5---t10---0---h5------------------t10---0---h5-------------|
F|--0---h7---------------------------------t11---0---h7------------------t11---0---|
C|---------------------------------------------------------------------------------|
G|---------------------------------------------------------------------------------|
C|---------------------------------------------------------------------------------|


D|---------------------------------------------------------------------------------|
A|----------------------t10---0---h5------------------t10---0---h5---t10---0---h5--|
F|--h7---t11---0---h7------------------t11---0---h7--------------------------------|
C|---------------------------------------------------------------------------------|
G|---------------------------------------------------------------------------------|
C|---------------------------------------------------------------------------------|


D|-----------------------------------------------t10---0---h9----------------------|
A|-----------------t10---0---h5---------------------------------t10---0---h3---h5--|
F|--t11---0---h7------------------t11---0---h7-------------------------------------|
C|---------------------------------------------------------------------------------|
G|---------------------------------------------------------------------------------|
C|---------------------------------------------------------------------------------|